Ain't No Rest For the Wicked

From WikidTab

Jump to: navigation, search
Open G Tuning Use a Slide. DGDGBd

Band: Cage The Elephant

Song: Ain’t No Rest for the Wicked

Tabbed by Be-Kind-Rewind

d|----------------------------------------------------------|
B|--0303/50------0303/50—-3/5-5-----0303/50--030----030-030-|
G|--0303/50------0303/50--3/5-5-----0303/50--030----030-030-|
D|--0303/50------0303/50--3/5-5-----0303/50--030----030-030-|
G|--0303/50------0303/50--3/5-5-----0303/50--030----030-030-|
D|----------------------------------------------------------|

Verse: (two times)(8th note tempo-ish)
d|-------------------------------------------------------|
B|-00-xxxxxx-33-xxxxxx-55-xxxxxx-33--xx------------------|
G|-00-xxxxxx-33-xxxxxx-55-xxxxxx-33--xx------------------|
D|-00-xxxxxx-33-xxxxxx-55-xxxxxx-33--xx--33--xx----------|
G|-00-xxxxxx-33-xxxxxx-55-xxxxxx-33--xx--33--xx----------|
D|---------------------------------------33--xx----------|

Verse/pre chorus:
d|-----------------------------------------------------|
B|-00-xxxxxx-33-xxxxxx-55-xxxxxx---030----030-030------|
G|-00-xxxxxx-33-xxxxxx-55-xxxxxx---030----030-030------|
D|-00-xxxxxx-33-xxxxxx-55-xxxxxx---030----030-030------|
G|-00-xxxxxx-33-xxxxxx-55-xxxxxx---030----030-030------|
D|-----------------------------------------------------|

Chorus: (seven times)       Play after Chorus
d|--------------------|    d|------------15----------------|
B|--3/12----3/555-----|    B|--3/12---12/15/16-16\12-12----|
G|--3/12----3/555-----|    G|--3/12------------------------|
D|--3/12----3/555-----|    D|--3/12------------------------|
G|--3/12----3/555-----|    G|--3/12------------------------|
D|--------------------|    D|------------------------------|

Verse: (three times) then play Verse/pre chorus

Chorus: (seven times)
Then play this after chorus segment

d|------------|
B|--3/12\-----|
G|--3/12\-----|
D|--3/12\-----|
G|--3/12\-----|
D|------------|

Solo: (three times)        2nd part of solo
d|-----------------------| |-------------------------------|
B|-5/11------------------| |----5/11-----------11----------|
G|-----10--12------------| |----------10--12-------10--12--|
D|--------------8\3------| |-------------------------------|
G|-----------------------| |-------------------------------|
D|-----------------------| |-------------------------------|

Verse:  play 3 times then play the verse/pre chorus
Chorus: play 7 times then play the after chorus segment

This may not be accurate but it’s close enough. Especially for my first tab. Hope this PS this video might help you learn this. http://www.youtube.com/watch?v=T1u-tPqVUW8

Personal tools
related